EvilLyrics

Karaoke for Anti Flag - Sold As Freedom

Anti Flag - Sold As Freedom (02:17)
created by anonymous
Import »»
into EvilLyrics


make sure Anti Flag - Sold As Freedom is playing in your player!
You have to use EvilLyrics in order to play karaoke. Get it here »»

Vote for quality of these timestamps: 
27%Thumbs Up     72%Thumbs Down
   (22 votes)
Now you can vote directly from EvilLyrics via its statusbar menu

 



Lyrics

Hey! I've recently really gotten into Anti-Flag. There awsome, ionno how to
explain them. Great strong message with great music. They really know how to
compliment each other on guitar, they harmonize well. Anyways, i noticed that
there isn't a tab for this song, and its like the best one on the album, so
I did it! It took me 45 minutes of listening to the song straight, so now I'm
tired of it, but it was worth it. Anyways, here you go.

TUNING
Guitar 1 - Well you have 1 of 2 options. You can do it in standard,
but the intro won't be as smooth to play. (e B G D A E)

OR

You can tune your high e string to a e-flat (eb). I suggest tuning
it to a eb, as it makes the intro play alot nicer (eb B G D A E)

Guitar 2 - Drop D (e B G D A D)

INTRO/BRIDGE
Guitar 1
eb|-5-0-0-5-0-0-5-0- e|-4-----4-----4---
B|----------------- B|---4-4---4-4---4-
G|----------------- X12 OR G|----------------- X12
D|----------------- D|-----------------
A|----------------- A|-----------------
E|----------------- E|-----------------

Guitar 2
e|------------------------------------------------------------
B|------------------------------------------------------------
G|-----------------4-4-4-4------------------------------------ X2
D|-2-2-2-2-1-1-1-1-4-4-4-4-4-4-4-4-6-6-6--6-6-6--6-6-6--6-6-6-
A|-2-2-2-2-1-1-1-1-2-2-2-2-4-4-4-4-6-6-6--6-6-6--6-6-6--6-6-6-
D|-2-2-2-2-1-1-1-1---------4-4-4-4-6-6-6--6-6-6--6-6-6--6-6-6-
pm . . . . . . . .

VERSE
Guitar 1
e|-----------------------------------------------------------------------------
B|-----------------------------------------------------------------------------
G|-13-13-13-13-13-13-13-13-13-13-14-14-14--13-13-13-13-13-13-13-13-13-13-13-13- X2
D|--x--x--x--x--x--x--x--x--x--x--x--x--x---x--x--x--x--x--x--x--x--x--x--x--x-
A|-11-11-11-11-11-11-11-11-11-11-12-12-14--11-11-11-11-11-11-11-11-11-11-11-11-
E|-----------------------------------------------------------------------------

then
e|-------------------------------------------------------------------------
B|-------------------------------------------------------------------------
G|-13-13-13-13-11-11-11-11-8-8-8-8-9-9-9---8-8-8-8-8-8-8-8-8-8-8-8-8-8-8-8- X1
D|--x--x--x--x--x--x--x--x-x-x-x-x-x-x-x---x-x-x-x-x-x-x-x-x-x-x-x-x-x-x-x-
A|-11-11-11-11--9--9--9--9-6-6-6-6-7-7-7---6-6-6-6-6-6-6-6-6-6-6-6-6-6-6-6-
E|-------------------------------------------------------------------------

then
e|-------------------------------------------------------------------------------
B|-------------------------------------------------------------------------------
G|-13-13-13-13-11-11-11-11-13-13-13-13-16-16-16-13-13-13-13-13-13-13-13-13-13-13- X1
D|--x--x--x--x--x--x--x--x--x--x--x--x--x--x--x--x--x--x--x--x--x--x--x--x--x--x-
A|-11-11-11-11--9--9--9--9-11-11-11-11-14-14-14-11-11-11-11-11-11-11-11-11-11-11-
E|-------------------------------------------------------------------------------

Guitar 2
e|--------------------------------------------------------------------
B|--------------------------------------------------------------------
G|-------------------------------------------------------------------- X4
D|-2-2-2-2-1-1-1-1-2-2-2-2-1-1-1-1--6-6-6-6-6-6-6-6-6-6-6-6-6-6-6-6-6-
A|-2-2-2-2-1-1-1-1-2-2-2-2-1-1-1-1--6-6-6-6-6-6-6-6-6-6-6-6-6-6-6-6-6-
D|-2-2-2-2-1-1-1-1-2-2-2-2-1-1-1-1--6-6-6-6-6-6-6-6-6-6-6-6-6-6-6-6-6-
pm . . . . . . . . . . . . . . . .

CHORUS
Guitar 1
e|-----------------------------------------------------------------
B|-----------------------------------------------------------------
G|-9-9-9-9-8-8-8-8-6-6-6-6-4b(6)r---------------------------------- X1
D|-9-9-9-9-8-8-8-8-6-6-6-6---------6-6-6-6-6-6-6-6-6-6-6-6-6-6-6-6-
A|-7-7-7-7-6-6-6-6-4-4-4-4---------6-6-6-6-6-6-6-6-6-6-6-6-6-6-6-6-
E|---------------------------------4-4-4-4-4-4-4-4-4-4-4-4-4-4-4-4-

then
e|--------------------------------------------------------------------------
B|--------------------------------------------------------------------------
G|-9-9-9-9-8-8-8-8-6-6-6-6-4b(6)r--------------1/13-13-13-13-13-13-13-13-13- X1
D|-9-9-9-9-8-8-8-8-6-6-6-6---------6-6-6-6-6-6------------------------------
A|-7-7-7-7-6-6-6-6-4-4-4-4---------6-6-6-6-6-6------------------------------
E|---------------------------------4-4-4-4-4-4------------------------------

then
e|-----------------------------------------------------------------
B|-----------------------------------------------------------------
G|-9-9-9-9-8-8-8-8-6-6-6-6-4b(6)r---------------------------------- X1
D|-9-9-9-9-8-8-8-8-6-6-6-6---------6-6-6-6-6-6-6-6-6-6-6-6-6-6-6-6-
A|-7-7-7-7-6-6-6-6-4-4-4-4---------6-6-6-6-6-6-6-6-6-6-6-6-6-6-6-6-
E|---------------------------------4-4-4-4-4-4-4-4-4-4-4-4-4-4-4-4-

then
e|-----------------------------------------------------------------
B|-----------------------------------------------------------------
G|-4-4-4-4-4-4-4-4-4-4-4-4-4-4-4-4-8-8-8-8-8-8-8-8-8-8-8-8-8-8-8-8- X1
D|-4-4-4-4-4-4-4-4-4-4-4-4-4-4-4-4-8-8-8-8-8-8-8-8-8-8-8-8-8-8-8-8-
A|-2-2-2-2-2-2-2-2-2-2-2-2-2-2-2-2-6-6-6-6-6-6-6-6-6-6-6-6-6-6-6-6-
E|-----------------------------------------------------------------

Guitar 2
e|------------------------------------------------------------------
B|------------------------------------------------------------------
G|-----------------6-6-6-6-4-4-4-4---------------------------------- X3
D|-2-2-2-2-1-1-1-1-6-6-6-6-4-4-4-4--6-6-6-6-6-6-6-6-6-6-6-6-6-6-6-6-
A|-2-2-2-2-1-1-1-1-4-4-4-4-2-2-2-2--6-6-6-6-6-6-6-6-6-6-6-6-6-6-6-6-
D|-2-2-2-2-1-1-1-1------------------6-6-6-6-6-6-6-6-6-6-6-6-6-6-6-6-

then
e|-----------------------------------------------------------------
B|-----------------------------------------------------------------
G|-4-4-4-4-4-4-4-4-4-4-4-4-4-4-4-4-8-8-8-8-8-8-8-8-8-8-8-8-8-8-8-8- X1
D|-4-4-4-4-4-4-4-4-4-4-4-4-4-4-4-4-8-8-8-8-8-8-8-8-8-8-8-8-8-8-8-8-
A|-2-2-2-2-2-2-2-2-2-2-2-2-2-2-2-2-6-6-6-6-6-6-6-6-6-6-6-6-6-6-6-6-
D|-----------------------------------------------------------------

(play VERSE again)

(play CHORUS again)

INTERLUDE PT1
Guitar 1
e|----------------------------------------------------------------------
B|----------------------------------------------------------------------
G|---------------------------------------------------------------------- X1
D|-6---------6--------6--------6------4--6---------6--------6--------6~-
A|-6--7-6----6--7-6---6--7-6---6--7-6----6--7-6----6--7-6---6--7-6---6~-
E|-4------7--4------7-4------7-4---------4------7--4------7-4------7-4~-

Guitar 2
e|----------------------------------------------------------------------
B|----------------------------------------------------------------------
G|---------------------------------------------------------------------- X1
D|-6---------6--------6--------6---------6---------6--------6--------6~-
A|-6---------6--------6--------6---------6---------6--------6--------6~-
D|-6---------6--------6--------6---------6---------6--------6--------6~-

INTERLUDE PT.2
Guitar 1
e|------------------------------------------------
B|------------------------------------------------
G|-9--9-9-9-9--8--8-8-8-8------------------------- X2
D|-9--9-9-9-9--8--8-8-8-8--6--6-6-6-6--4--4-4-4-4-
A|-7--7-7-7-7--6--6-6-6-6--6--6-6-6-6--4--4-4-4-4-
E|-------------------------4--4-4-4-4--2--2-2-2-2-

then
e|---------------------------------
B|---------------------------------
G|-9-9-9-9-8-8-8-8----------------- X2
D|-9-9-9-9-8-8-8-8-6-6-6-6-4-4-4-4-
A|-7-7-7-7-6-6-6-6-6-6-6-6-4-4-4-4-
E|-----------------4-4-4-4-2-2-2-2-
pm . . . . . . . . . . . . . . . .

Guitar 2
e|------------------------------------------------
B|------------------------------------------------
G|------------------------------------------------ X2
D|-2--2-2-2-2--1--1-1-1-1--6--6-6-6-6--4--4-4-4-4-
A|-2--2-2-2-2--1--1-1-1-1--6--6-6-6-6--4--4-4-4-4-
D|-2--2-2-2-2--1--1-1-1-1--6--6-6-6-6--4--4-4-4-4-

then
e|--------------------------------
B|--------------------------------
G|-------------------------------- X2
D|-2-2-2-2-1-1-1-1-6-6-6-6-4-4-4-4-
A|-2-2-2-2-1-1-1-1-6-6-6-6-4-4-4-4-
D|-2-2-2-2-1-1-1-1-6-6-6-6-4-4-4-4-
pm . . . . . . . . . . . . . . . .

(play BRIDGE again)

And thats it! Awsome song eh? i think so. It should be 100% there, i hear no errors. If u
find any i'd like to know. Any questions or comments or corrections, e-mail me at
Babaca_Hyperpotamus@hotmail.com but please people, no asking me to tab another song,
I only tab what i want when i want. anyways enjoy people!


other by the same artist (click icon to import directly)
Anti Flag - 911 For Peace (03:40) [anonymous]
Anti Flag - America Got It Right (02:55) [anonymous]
Anti Flag - Angry Young And Poor (02:41) [anonymous]
Anti Flag - Antithetic to the Cure (02:04) [anonymous]
Anti Flag - Die for the Government (03:31) [anonymous]
Anti Flag - Die For Your Government (03:31) [anonymous]
Anti Flag - Drink Drank Punk (01:41) [anonymous]
Anti Flag - Emigre (02:59) [anonymous]
Anti Flag - Hymn For The Dead (03:39) [anonymous]
Anti Flag - Id Tell You But... (02:09) [anonymous]
Anti Flag - Mind The G.A.T.T. (03:14) [anonymous]
Anti Flag - Mind the G.A.T.T. (03:14) [johnny2k5]
Anti Flag - Mind the G.A.T.T. (03:14) [anonymous]
Anti Flag - Mind The GATT (03:14) [anonymous]
Anti Flag - No Borders No Nations (03:14) [deF291]
Anti Flag - One People One Struggle (03:00) [anonymous]
Anti Flag - operation iraqi liberation oil (02:19) [anonymous]
Anti Flag - Post War Breakout (03:11) [anonymous]
Anti Flag - Red White And Brainwashed (01:52) [anonymous]
Anti Flag - Smash it to Pieces (02:48) [deF291]
Anti Flag - Sold As Freedom (02:17) [anonymous]
Anti Flag - spazs house destruction party (03:10) [fontaine]
Anti Flag - Tearing Everyone Down (02:55) [deF291]
Anti flag - The school of assassins (02:37) [anonymous]
Anti Flag - The W.T.O. Kills Farmers (03:32) [anonymous]
Anti Flag - Turncoat (02:10) [Glorny]
Anti Flag - Turncoat (02:10) [anonymous]
Anti Flag - Youd Do The Same (02:20) [anonymous]
Anti Flag - Youve Been To Our Shows You (03:03) [anonymous]
Anti Flag - Youve Got to Die for the Government (03:35) [Creap]

# A B C D E F G H I J K L M N O P Q R S T U V W X Y Z


Register in order to contribute under your name »»

Read karaoke FAQ »»
 
:: EvilLyrics
Screens
Karaoke
Lyrics
Players
Development
F.A.Q.
Addons
Promote
Download

Copyright
© 2003-17
EvilLaboratories