EvilLyrics

Karaoke for Franco Simone - Esta noche

Franco Simone - Esta noche (03:57)
created by anonymous
Import »»
into EvilLyrics


make sure Franco Simone - Esta noche is playing in your player!
You have to use EvilLyrics in order to play karaoke. Get it here »»

Vote for quality of these timestamps: 
58%Thumbs Up     41%Thumbs Down
   (48 votes)
Now you can vote directly from EvilLyrics via its statusbar menu

 



Lyrics

En un cine no quiero pararme
este tiempo es de solo aburrirme
un recuerdo vuelve a mi mente hablando de ti
yo pensaba que fueran bastantes
unos d�as para olvidarte
mas yo siento vivir en mi alma deseo de ti.
Yo repito en cada momento
no se puede jugar con el tiempo
sufrir por un recuerdo de amor que no es mas amor
fue muy f�cil decir se acab�
como quieres devuelvo tu vida
pero quiero esta noche yo quiero que tu sufras por mi.


C Em
Esta noche yo te estoy buscando
F C C7
esta noche estoy enloqueciendo
F C G
me pregunto que estar�s creyendo o imaginando.
C Em
Esta noche yo estoy corriendo
F C C7
y tu sabes que estoy sufriendo
F C G
no soporto m�s mi pensamiento, te estoy esperando.


C G C F-G
e--4/6--8--6--4/6-------4/6--8--6-|-4/6-------4/6--8--6-|-4/6-------
B-----------------8---------------|-----6---------------|-----8-----
G---------------------------------|---------------------|-----------
D---------------------------------|---------------------|-----------
A---------------------------------|---------------------|-----------
E---------------------------------|---------------------|-----------

C G
En mi boca yo siento el respiro
Am Em
tu sabor dulce cuando me amabas
F C G
y mi lecho parece volverse un campo de trigo
Dm Am
a tu lado encontraba mi tierra
Em Am
mi horizonte, mi cielo, mi estrella
F C G
yo tomaba tu alma, tu cuerpo y todo de ti.


C Em
Esta noche yo te estoy buscando
F C C7
esta noche estoy enloqueciendo
F C G
me pregunto que estar�s creyendo o imaginando.


C G#
e--16--18--16-|-16--13---
B-------------|----------
G-------------|----------
D-------------|----------
A-------------|----------
E-------------|----------

C# Fm
Esta noche yo estoy corriendo
F# C# C#7
y tu sabes que estoy sufriendo
F# C# G#
no soporto m�s mi pensamiento, te estoy esperando

C# G#
e--6--8--6-|-------3--3--6--6--10/11--10-|-10--8--6----14--13--12--11--9--8--6-|
B----------|-4--4------------------------|-------------------------------------|
G----------|-----------------------------|-------------------------------------|
D----------|-----------------------------|-------------------------------------|
A----------|-----------------------------|-------------------------------------|
E----------|-----------------------------|-------------------------------------|

F# C# C#7
e|-4--4--8--11--11--16--15-|-15--13�11----
B|-------------------------|--------------
G|-------------------------|--------------
D|-------------------------|--------------
A|-------------------------|--------------
E|-------------------------|--------------

F# C# G#
no soporto m�s mi pensamiento, te estoy esperando


C#
e--4--6--4-|-4----
B----------|----6-
G----------|------
D----------|------
A----------|------
E----------|------


G# C#
te estoy esperando.

other by the same artist (click icon to import directly)
Franco Simone - Esta noche (03:57) [anonymous]
Franco Simone - Per una volta (03:40) [zetareticuli]
Franco Simone - Respiro (03:16) [zetareticuli]

# A B C D E F G H I J K L M N O P Q R S T U V W X Y Z


Register in order to contribute under your name »»

Read karaoke FAQ »»
 
:: EvilLyrics
Screens
Karaoke
Lyrics
Players
Development
F.A.Q.
Addons
Promote
Download

Copyright
© 2003-17
EvilLaboratories